  0
SECTION
  2
HEADER
  9
$ACADVER
  1
AC1015
  9
$ACADMAINTVER
 70
     6
  9
$DWGCODEPAGE
  3
ANSI_1254
  9
$INSBASE
 10
0.0
 20
0.0
 30
0.0
  9
$EXTMIN
 10
0.0
 20
0.0
 30
0.0
  9
$EXTMAX
 10
279.4
 20
215.9
 30
0.0
  9
$LIMMIN
 10
0.0
 20
0.0
  9
$LIMMAX
 10
279.4
 20
215.9
  9
$ORTHOMODE
 70
     0
  9
$REGENMODE
 70
     1
  9
$FILLMODE
 70
     1
  9
$QTEXTMODE
 70
     0
  9
$MIRRTEXT
 70
     1
  9
$LTSCALE
 40
1.0
  9
$ATTMODE
 70
     1
  9
$TEXTSIZE
 40
3.5
  9
$TRACEWID
 40
1.0
  9
$TEXTSTYLE
  7
Standard
  9
$CLAYER
  8
0
  9
$CELTYPE
  6
ByLayer
  9
$CECOLOR
 62
   256
  9
$CELTSCALE
 40
1.0
  9
$DISPSILH
 70
     0
  9
$DIMSCALE
 40
1.0
  9
$DIMASZ
 40
3.5
  9
$DIMEXO
 40
1.0
  9
$DIMDLI
 40
3.75
  9
$DIMRND
 40
0.0
  9
$DIMDLE
 40
0.0
  9
$DIMEXE
 40
1.0
  9
$DIMTP
 40
0.0
  9
$DIMTM
 40
0.0
  9
$DIMTXT
 40
3.5
  9
$DIMCEN
 40
2.5
  9
$DIMTSZ
 40
0.0
  9
$DIMTOL
 70
     0
  9
$DIMLIM
 70
     0
  9
$DIMTIH
 70
     1
  9
$DIMTOH
 70
     1
  9
$DIMSE1
 70
     0
  9
$DIMSE2
 70
     0
  9
$DIMTAD
 70
     1
  9
$DIMZIN
 70
     0
  9
$DIMBLK
  1

  9
$DIMASO
 70
     1
  9
$DIMSHO
 70
     1
  9
$DIMPOST
  1

  9
$DIMAPOST
  1

  9
$DIMALT
 70
     0
  9
$DIMALTD
 70
     3
  9
$DIMALTF
 40
0.0393700787
  9
$DIMLFAC
 40
1.0
  9
$DIMTOFL
 70
     1
  9
$DIMTVP
 40
0.0
  9
$DIMTIX
 70
     0
  9
$DIMSOXD
 70
     0
  9
$DIMSAH
 70
     0
  9
$DIMBLK1
  1

  9
$DIMBLK2
  1

  9
$DIMSTYLE
  2
ISO-25
  9
$DIMCLRD
 70
     0
  9
$DIMCLRE
 70
     0
  9
$DIMCLRT
 70
     0
  9
$DIMTFAC
 40
1.0
  9
$DIMGAP
 40
1.524
  9
$DIMJUST
 70
     0
  9
$DIMSD1
 70
     0
  9
$DIMSD2
 70
     0
  9
$DIMTOLJ
 70
     0
  9
$DIMTZIN
 70
     0
  9
$DIMALTZ
 70
     0
  9
$DIMALTTZ
 70
     0
  9
$DIMUPT
 70
     0
  9
$DIMDEC
 70
     2
  9
$DIMTDEC
 70
     2
  9
$DIMALTU
 70
     2
  9
$DIMALTTD
 70
     3
  9
$DIMTXSTY
  7
Standard
  9
$DIMAUNIT
 70
     0
  9
$DIMADEC
 70
     2
  9
$DIMALTRND
 40
0.0
  9
$DIMAZIN
 70
     0
  9
$DIMDSEP
 70
    44
  9
$DIMATFIT
 70
     3
  9
$DIMFRAC
 70
     0
  9
$DIMLDRBLK
  1

  9
$DIMLUNIT
 70
     2
  9
$DIMLWD
 70
    -2
  9
$DIMLWE
 70
    -2
  9
$DIMTMOVE
 70
     0
  9
$LUNITS
 70
     2
  9
$LUPREC
 70
     2
  9
$SKETCHINC
 40
1.0
  9
$FILLETRAD
 40
10.0
  9
$AUNITS
 70
     0
  9
$AUPREC
 70
     2
  9
$MENU
  1
.
  9
$ELEVATION
 40
0.0
  9
$PELEVATION
 40
0.0
  9
$THICKNESS
 40
0.0
  9
$LIMCHECK
 70
     0
  9
$CHAMFERA
 40
0.0
  9
$CHAMFERB
 40
0.0
  9
$CHAMFERC
 40
0.0
  9
$CHAMFERD
 40
0.0
  9
$SKPOLY
 70
     0
  9
$TDCREATE
 40
2459853.599861655
  9
$TDUCREATE
 40
2459853.474861655
  9
$TDUPDATE
 40
2459853.599861805
  9
$TDUUPDATE
 40
2459853.474861805
  9
$TDINDWG
 40
0.0000000116
  9
$TDUSRTIMER
 40
0.0000000116
  9
$USRTIMER
 70
     1
  9
$ANGBASE
 50
0.0
  9
$ANGDIR
 70
     0
  9
$PDMODE
 70
     0
  9
$PDSIZE
 40
-1.0
  9
$PLINEWID
 40
0.0
  9
$SPLFRAME
 70
     0
  9
$SPLINETYPE
 70
     6
  9
$SPLINESEGS
 70
     8
  9
$HANDSEED
  5
F2
  9
$SURFTAB1
 70
     6
  9
$SURFTAB2
 70
     6
  9
$SURFTYPE
 70
     6
  9
$SURFU
 70
     6
  9
$SURFV
 70
     6
  9
$UCSBASE
  2

  9
$UCSNAME
  2

  9
$UCSORG
 10
0.0
 20
0.0
 30
0.0
  9
$UCSXDIR
 10
1.0
 20
0.0
 30
0.0
  9
$UCSYDIR
 10
0.0
 20
1.0
 30
0.0
  9
$UCSORTHOREF
  2

  9
$UCSORTHOVIEW
 70
     0
  9
$UCSORGTOP
 10
0.0
 20
0.0
 30
0.0
  9
$UCSORGBOTTOM
 10
0.0
 20
0.0
 30
0.0
  9
$UCSORGLEFT
 10
0.0
 20
0.0
 30
0.0
  9
$UCSORGRIGHT
 10
0.0
 20
0.0
 30
0.0
  9
$UCSORGFRONT
 10
0.0
 20
0.0
 30
0.0
  9
$UCSORGBACK
 10
0.0
 20
0.0
 30
0.0
  9
$PUCSBASE
  2

  9
$PUCSNAME
  2

  9
$PUCSORG
 10
0.0
 20
0.0
 30
0.0
  9
$PUCSXDIR
 10
1.0
 20
0.0
 30
0.0
  9
$PUCSYDIR
 10
0.0
 20
1.0
 30
0.0
  9
$PUCSORTHOREF
  2

  9
$PUCSORTHOVIEW
 70
     0
  9
$PUCSORGTOP
 10
0.0
 20
0.0
 30
0.0
  9
$PUCSORGBOTTOM
 10
0.0
 20
0.0
 30
0.0
  9
$PUCSORGLEFT
 10
0.0
 20
0.0
 30
0.0
  9
$PUCSORGRIGHT
 10
0.0
 20
0.0
 30
0.0
  9
$PUCSORGFRONT
 10
0.0
 20
0.0
 30
0.0
  9
$PUCSORGBACK
 10
0.0
 20
0.0
 30
0.0
  9
$USERI1
 70
     0
  9
$USERI2
 70
     0
  9
$USERI3
 70
     0
  9
$USERI4
 70
     0
  9
$USERI5
 70
     0
  9
$USERR1
 40
0.0
  9
$USERR2
 40
0.0
  9
$USERR3
 40
0.0
  9
$USERR4
 40
0.0
  9
$USERR5
 40
0.0
  9
$WORLDVIEW
 70
     1
  9
$SHADEDGE
 70
     3
  9
$SHADEDIF
 70
    70
  9
$TILEMODE
 70
     1
  9
$MAXACTVP
 70
    64
  9
$PINSBASE
 10
0.0
 20
0.0
 30
0.0
  9
$PLIMCHECK
 70
     0
  9
$PEXTMIN
 10
1.0000000000E+20
 20
1.0000000000E+20
 30
1.0000000000E+20
  9
$PEXTMAX
 10
-1.0000000000E+20
 20
-1.0000000000E+20
 30
-1.0000000000E+20
  9
$PLIMMIN
 10
0.0
 20
0.0
  9
$PLIMMAX
 10
420.0
 20
297.0
  9
$UNITMODE
 70
     0
  9
$VISRETAIN
 70
     1
  9
$PLINEGEN
 70
     0
  9
$PSLTSCALE
 70
     1
  9
$TREEDEPTH
 70
  3020
  9
$CMLSTYLE
  2
Standard
  9
$CMLJUST
 70
     0
  9
$CMLSCALE
 40
20.0
  9
$PROXYGRAPHICS
 70
     1
  9
$MEASUREMENT
 70
     1
  9
$CELWEIGHT
370
    -1
  9
$ENDCAPS
280
     0
  9
$JOINSTYLE
280
     0
  9
$LWDISPLAY
290
     1
  9
$INSUNITS
 70
     4
  9
$HYPERLINKBASE
  1

  9
$STYLESHEET
  1

  9
$XEDIT
290
     1
  9
$CEPSNTYPE
380
     0
  9
$PSTYLEMODE
290
     1
  9
$FINGERPRINTGUID
  2
{be2e1cb2-312d-40e9-ab71-297beba8f000}
  9
$VERSIONGUID
  2
{FAEB1C32-E019-11D5-929B-00C0DF256EC4}
  9
$EXTNAMES
290
     1
  9
$PSVPSCALE
 40
0.0
  9
$OLESTARTUP
290
     0
  0
ENDSEC
  0
SECTION
  2
CLASSES
  0
CLASS
  1
ACDBDICTIONARYWDFLT
  2
AcDbDictionaryWithDefault
  3
ObjectDBX Classes
 90
        0
280
     0
281
     0
  0
CLASS
  1
VISUALSTYLE
  2
AcDbVisualStyle
  3
ObjectDBX Classes
 90
     4095
280
     0
281
     0
  0
CLASS
  1
MATERIAL
  2
AcDbMaterial
  3
ObjectDBX Classes
 90
     1153
280
     0
281
     0
  0
CLASS
  1
SCALE
  2
AcDbScale
  3
ObjectDBX Classes
 90
     1153
280
     0
281
     0
  0
CLASS
  1
TABLESTYLE
  2
AcDbTableStyle
  3
ObjectDBX Classes
 90
     4095
280
     0
281
     0
  0
CLASS
  1
MLEADERSTYLE
  2
AcDbMLeaderStyle
  3
ACDB_MLEADERSTYLE_CLASS
 90
     4095
280
     0
281
     0
  0
CLASS
  1
SUN
  2
AcDbSun
  3
SCENEOE
 90
     1153
280
     0
281
     0
  0
CLASS
  1
ACDBPLACEHOLDER
  2
AcDbPlaceHolder
  3
ObjectDBX Classes
 90
        0
280
     0
281
     0
  0
CLASS
  1
LAYOUT
  2
AcDbLayout
  3
ObjectDBX Classes
 90
        0
280
     0
281
     0
  0
ENDSEC
  0
SECTION
  2
TABLES
  0
TABLE
  2
VPORT
  5
8
330
0
100
AcDbSymbolTable
 70
     1
  0
VPORT
  5
29
330
8
100
AcDbSymbolTableRecord
100
AcDbViewportTableRecord
  2
*Active
 70
     0
 10
0.0
 20
0.0
 11
1.0
 21
1.0
 12
139.7
 22
107.95
 13
0.0
 23
0.0
 14
10.0
 24
10.0
 15
10.0
 25
10.0
 16
0.0
 26
0.0
 36
1.0
 17
0.0
 27
0.0
 37
0.0
 40
215.9
 41
1.2941176471
 42
50.0
 43
0.0
 44
0.0
 50
0.0
 51
0.0
 71
     0
 72
  2000
 73
     1
 74
     3
 75
     0
 76
     0
 77
     0
 78
     0
281
     0
 65
     1
110
0.0
120
0.0
130
0.0
111
1.0
121
0.0
131
0.0
112
0.0
122
1.0
132
0.0
 79
     0
146
0.0
  0
ENDTAB
  0
TABLE
  2
LTYPE
  5
5
330
0
100
AcDbSymbolTable
 70
     6
  0
LTYPE
  5
14
330
5
100
AcDbSymbolTableRecord
100
AcDbLinetypeTableRecord
  2
ByBlock
 70
     0
  3

 72
    65
 73
     0
 40
0.0
  0
LTYPE
  5
15
330
5
100
AcDbSymbolTableRecord
100
AcDbLinetypeTableRecord
  2
ByLayer
 70
     0
  3

 72
    65
 73
     0
 40
0.0
  0
LTYPE
  5
16
330
5
100
AcDbSymbolTableRecord
100
AcDbLinetypeTableRecord
  2
Continuous
 70
     0
  3
Solid line
 72
    65
 73
     0
 40
0.0
  0
LTYPE
  5
6E
330
5
100
AcDbSymbolTableRecord
100
AcDbLinetypeTableRecord
  2
HIDDEN
 70
     0
  3
Hidden __ __ __ __ __ __ __ __ __ __ __ __ __ __
 72
    65
 73
     2
 40
1.905
 49
1.27
 74
     0
 49
-0.635
 74
     0
  0
LTYPE
  5
6F
330
5
100
AcDbSymbolTableRecord
100
AcDbLinetypeTableRecord
  2
PHANTOM
 70
     0
  3
Phantom ______  __  __  ______  __  __  ______
 72
    65
 73
     6
 40
12.7
 49
6.35
 74
     0
 49
-1.27
 74
     0
 49
1.27
 74
     0
 49
-1.27
 74
     0
 49
1.27
 74
     0
 49
-1.27
 74
     0
  0
LTYPE
  5
70
330
5
100
AcDbSymbolTableRecord
100
AcDbLinetypeTableRecord
  2
CENTER
 70
     0
  3
Center ____ _ ____ _ ____ _ ____ _ ____ _ ____
 72
    65
 73
     4
 40
10.16
 49
6.35
 74
     0
 49
-1.27
 74
     0
 49
1.27
 74
     0
 49
-1.27
 74
     0
  0
LTYPE
  5
71
330
5
100
AcDbSymbolTableRecord
100
AcDbLinetypeTableRecord
  2
CENTERX2
 70
     0
  3
Center (2x) ________  __  ________  __  _____
 72
    65
 73
     4
 40
20.32
 49
12.7
 74
     0
 49
-2.54
 74
     0
 49
2.54
 74
     0
 49
-2.54
 74
     0
  0
LTYPE
  5
72
330
5
100
AcDbSymbolTableRecord
100
AcDbLinetypeTableRecord
  2
DOT2
 70
     0
  3
Dot (.5x) ........................................
 72
    65
 73
     2
 40
0.635
 49
0.0
 74
     0
 49
-0.635
 74
     0
  0
ENDTAB
  0
TABLE
  2
LAYER
  5
2
330
0
100
AcDbSymbolTable
 70
    17
  0
LAYER
  5
10
330
2
100
AcDbSymbolTableRecord
100
AcDbLayerTableRecord
  2
0
 70
     0
 62
     7
  6
Continuous
370
    -3
390
F
  0
LAYER
  5
73
330
2
100
AcDbSymbolTableRecord
100
AcDbLayerTableRecord
  2
FORMAT
 70
     0
 62
     7
  6
Continuous
370
    -3
390
F
  0
LAYER
  5
74
330
2
100
AcDbSymbolTableRecord
100
AcDbLayerTableRecord
  2
YARDIMCI_GEOMETRI
 70
     0
 62
    -6
  6
Continuous
290
     0
370
    -3
390
F
  0
LAYER
  5
75
330
2
100
AcDbSymbolTableRecord
100
AcDbLayerTableRecord
  2
SAYFA_CERCEVESI
 70
     0
 62
     7
  6
Continuous
370
    25
390
F
  0
LAYER
  5
76
330
2
100
AcDbSymbolTableRecord
100
AcDbLayerTableRecord
  2
ANTET
 70
     0
 62
     7
  6
Continuous
370
    -3
390
F
  0
LAYER
  5
77
330
2
100
AcDbSymbolTableRecord
100
AcDbLayerTableRecord
  2
OLCU
 70
     0
 62
   150
  6
Continuous
370
    -3
390
F
  0
LAYER
  5
78
330
2
100
AcDbSymbolTableRecord
100
AcDbLayerTableRecord
  2
METIN
 70
     0
 62
    96
  6
Continuous
370
    -3
390
F
  0
LAYER
  5
79
330
2
100
AcDbSymbolTableRecord
100
AcDbLayerTableRecord
  2
BALON
 70
     0
 62
     5
  6
Continuous
370
    -3
390
F
  0
LAYER
  5
7A
330
2
100
AcDbSymbolTableRecord
100
AcDbLayerTableRecord
  2
VURGU
 70
     0
 62
     7
  6
Continuous
370
    -3
390
F
  0
LAYER
  5
7B
330
2
100
AcDbSymbolTableRecord
100
AcDbLayerTableRecord
  2
SILIK
 70
     0
 62
     7
  6
Continuous
370
    -3
390
F
  0
LAYER
  5
7C
330
2
100
AcDbSymbolTableRecord
100
AcDbLayerTableRecord
  2
MODEL
 70
     0
 62
     7
  6
Continuous
370
    -3
390
F
  0
LAYER
  5
7D
330
2
100
AcDbSymbolTableRecord
100
AcDbLayerTableRecord
  2
DETAYLANDıRMA
 70
     0
 62
   190
  6
Continuous
370
    -3
390
F
  0
LAYER
  5
7E
330
2
100
AcDbSymbolTableRecord
100
AcDbLayerTableRecord
  2
TOLERANS
 70
     0
 62
   230
  6
Continuous
370
    -3
390
F
  0
LAYER
  5
7F
330
2
100
AcDbSymbolTableRecord
100
AcDbLayerTableRecord
  2
MERKEZ_CIZGILERI
 70
     0
 62
    30
  6
Continuous
370
    -3
390
F
  0
LAYER
  5
80
330
2
100
AcDbSymbolTableRecord
100
AcDbLayerTableRecord
  2
KESIT-DETAY_CIZGILERI
 70
     0
 62
     7
  6
Continuous
370
    -3
390
F
  0
LAYER
  5
81
330
2
100
AcDbSymbolTableRecord
100
AcDbLayerTableRecord
  2
\U+041E\U+0421\U+0415\U+0412\U+042B\U+0415
 70
     0
 62
     7
  6
Continuous
370
    -3
390
F
  0
LAYER
  5
82
330
2
100
AcDbSymbolTableRecord
100
AcDbLayerTableRecord
  2
\U+0412\U+041E\U+0414\U+042F\U+041D\U+042B\U+0415_\U+0417\U+041D\U+0410\U+041A\U+0418
 70
     0
 62
    11
  6
Continuous
370
    -3
390
F
  0
ENDTAB
  0
TABLE
  2
STYLE
  5
3
330
0
100
AcDbSymbolTable
 70
     1
  0
STYLE
  5
11
330
3
100
AcDbSymbolTableRecord
100
AcDbTextStyleTableRecord
  2
Standard
 70
     0
 40
0.0
 41
1.0
 50
0.0
 71
     0
 42
3.5
  3
txt
  4

  0
ENDTAB
  0
TABLE
  2
VIEW
  5
6
330
0
100
AcDbSymbolTable
 70
     0
  0
ENDTAB
  0
TABLE
  2
UCS
  5
7
330
0
100
AcDbSymbolTable
 70
     0
  0
ENDTAB
  0
TABLE
  2
APPID
  5
9
330
0
100
AcDbSymbolTable
 70
     1
  0
APPID
  5
12
330
9
100
AcDbSymbolTableRecord
100
AcDbRegAppTableRecord
  2
ACAD
 70
     0
  0
ENDTAB
  0
TABLE
  2
DIMSTYLE
  5
A
330
0
100
AcDbSymbolTable
 70
     1
100
AcDbDimStyleTable
  0
DIMSTYLE
105
27
330
A
100
AcDbSymbolTableRecord
100
AcDbDimStyleTableRecord
  2
ISO-25
 70
     0
 41
2.5
 42
0.625
 43
3.75
 44
1.25
 73
     0
 74
     0
 77
     1
 78
     8
140
2.5
141
2.5
143
0.0393700787
147
0.625
171
     3
172
     1
178
     0
271
     2
272
     2
274
     3
278
    44
283
     0
284
     8
340
11
  0
ENDTAB
  0
TABLE
  2
BLOCK_RECORD
  5
1
330
0
100
AcDbSymbolTable
 70
     2
  0
BLOCK_RECORD
  5
1F
330
1
100
AcDbSymbolTableRecord
100
AcDbBlockTableRecord
  2
*Model_Space
340
22
  0
BLOCK_RECORD
  5
1B
330
1
100
AcDbSymbolTableRecord
100
AcDbBlockTableRecord
  2
*Paper_Space
340
1E
  0
BLOCK_RECORD
  5
23
330
1
100
AcDbSymbolTableRecord
100
AcDbBlockTableRecord
  2
*Paper_Space0
340
26
  0
BLOCK_RECORD
  5
E5
330
1
100
AcDbSymbolTableRecord
100
AcDbBlockTableRecord
  2
SW_CENTERMARKSYMBOL_0
340
0
102
{BLKREFS
331
F0
102
}
  0
ENDTAB
  0
ENDSEC
  0
SECTION
  2
BLOCKS
  0
BLOCK
  5
20
330
1F
100
AcDbEntity
  8
0
100
AcDbBlockBegin
  2
*Model_Space
 70
     0
 10
0.0
 20
0.0
 30
0.0
  3
*Model_Space
  1

  0
ENDBLK
  5
21
330
1F
100
AcDbEntity
  8
0
100
AcDbBlockEnd
  0
BLOCK
  5
1C
330
1B
100
AcDbEntity
 67
     1
  8
0
100
AcDbBlockBegin
  2
*Paper_Space
 70
     0
 10
0.0
 20
0.0
 30
0.0
  3
*Paper_Space
  1

  0
ENDBLK
  5
1D
330
1B
100
AcDbEntity
 67
     1
  8
0
100
AcDbBlockEnd
  0
BLOCK
  5
24
330
23
100
AcDbEntity
  8
0
100
AcDbBlockBegin
  2
*Paper_Space0
 70
     0
 10
0.0
 20
0.0
 30
0.0
  3
*Paper_Space0
  1

  0
ENDBLK
  5
25
330
23
100
AcDbEntity
  8
0
100
AcDbBlockEnd
  0
BLOCK
  5
E6
330
E5
100
AcDbEntity
  8
0
100
AcDbBlockBegin
  2
SW_CENTERMARKSYMBOL_0
 70
     0
 10
0.0
 20
0.0
 30
0.0
  3
SW_CENTERMARKSYMBOL_0
  1

  0
LINE
  5
E8
330
E5
100
AcDbEntity
  8
FORMAT
 62
     0
100
AcDbLine
 10
0.0
 20
0.0
 30
0.0
 11
0.0
 21
2.5
 31
0.0
  0
LINE
  5
E9
330
E5
100
AcDbEntity
  8
FORMAT
 62
     0
100
AcDbLine
 10
0.0
 20
0.0
 30
0.0
 11
-2.5
 21
0.0
 31
0.0
  0
LINE
  5
EA
330
E5
100
AcDbEntity
  8
FORMAT
 62
     0
100
AcDbLine
 10
0.0
 20
0.0
 30
0.0
 11
0.0
 21
-2.5
 31
0.0
  0
LINE
  5
EB
330
E5
100
AcDbEntity
  8
FORMAT
 62
     0
100
AcDbLine
 10
0.0
 20
0.0
 30
0.0
 11
2.5
 21
0.0
 31
0.0
  0
LINE
  5
EC
330
E5
100
AcDbEntity
  8
FORMAT
 62
     0
100
AcDbLine
 10
0.0
 20
5.0
 30
0.0
 11
0.0
 21
160.0
 31
0.0
  0
LINE
  5
ED
330
E5
100
AcDbEntity
  8
FORMAT
 62
     0
100
AcDbLine
 10
-5.0
 20
0.0
 30
0.0
 11
-160.0
 21
0.0
 31
0.0
  0
LINE
  5
EE
330
E5
100
AcDbEntity
  8
FORMAT
 62
     0
100
AcDbLine
 10
0.0
 20
-5.0
 30
0.0
 11
0.0
 21
-160.0
 31
0.0
  0
LINE
  5
EF
330
E5
100
AcDbEntity
  8
FORMAT
 62
     0
100
AcDbLine
 10
5.0
 20
0.0
 30
0.0
 11
160.0
 21
0.0
 31
0.0
  0
ENDBLK
  5
E7
330
E5
100
AcDbEntity
  8
0
100
AcDbBlockEnd
  0
ENDSEC
  0
SECTION
  2
ENTITIES
  0
ARC
  5
83
330
1F
100
AcDbEntity
  8
0
  6
Continuous
 62
     7
370
    25
100
AcDbCircle
 10
-404.835512359
 20
263.0851680021
 30
0.0
 40
2.0
100
AcDbArc
 50
63.0307524982
 51
90.0
  0
ARC
  5
84
330
1F
100
AcDbEntity
  8
0
  6
Continuous
 62
     7
370
    25
100
AcDbCircle
 10
-404.835512359
 20
-47.9148319979
 30
0.0
 40
2.0
100
AcDbArc
 50
270.0
 51
296.9692475018
  0
LINE
  5
85
330
1F
100
AcDbEntity
  8
0
  6
Continuous
 62
     7
370
    25
100
AcDbLine
 10
-404.835512359
 20
265.0851680021
 30
0.0
 11
-554.3559224728
 21
265.0851680021
 31
0.0
  0
LINE
  5
86
330
1F
100
AcDbEntity
  8
0
  6
Continuous
 62
     7
370
    25
100
AcDbLine
 10
-554.3559224728
 20
-49.9148319979
 30
0.0
 11
-404.835512359
 21
-49.9148319979
 31
0.0
  0
LINE
  5
87
330
1F
100
AcDbEntity
  8
0
  6
Continuous
 62
     7
370
    25
100
AcDbLine
 10
-403.9284879544
 20
-49.6973321323
 30
0.0
 11
-291.7833569912
 21
7.3676681366
 31
0.0
  0
LINE
  5
88
330
1F
100
AcDbEntity
  8
0
  6
Continuous
 62
     7
370
    25
100
AcDbLine
 10
-291.7833569912
 20
207.8026678677
 30
0.0
 11
-403.9284879544
 21
264.8676681366
 31
0.0
  0
ARC
  5
89
330
1F
100
AcDbEntity
  8
0
  6
Continuous
 62
     7
370
    25
100
AcDbCircle
 10
-290.8763325865
 20
209.5851680021
 30
0.0
 40
2.000000000000006
100
AcDbArc
 50
243.0307524982
 51
270.0
  0
ARC
  5
8A
330
1F
100
AcDbEntity
  8
0
  6
Continuous
 62
     7
370
    25
100
AcDbCircle
 10
-290.8763325865
 20
5.5851680021
 30
0.0
 40
2.000000000000003
100
AcDbArc
 50
90.0
 51
116.9692475018
  0
LINE
  5
8B
330
1F
100
AcDbEntity
  8
0
  6
Continuous
 62
     7
370
    25
100
AcDbLine
 10
-174.3559224728
 20
207.5851680021
 30
0.0
 11
-290.8763325865
 21
207.5851680021
 31
0.0
  0
LINE
  5
8C
330
1F
100
AcDbEntity
  8
0
  6
Continuous
 62
     7
370
    25
100
AcDbLine
 10
-290.8763325865
 20
7.5851680021
 30
0.0
 11
-174.3559224728
 21
7.5851680021
 31
0.0
  0
LINE
  5
8D
330
1F
100
AcDbEntity
  8
0
  6
Continuous
 62
     7
370
    25
100
AcDbLine
 10
-554.3559224728
 20
265.0851680021
 30
0.0
 11
-554.3559224728
 21
-49.9148319979
 31
0.0
  0
LINE
  5
8E
330
1F
100
AcDbEntity
  8
0
  6
Continuous
 62
     7
370
    25
100
AcDbLine
 10
-174.3559224728
 20
207.5851680021
 30
0.0
 11
-174.3559224728
 21
7.5851680021
 31
0.0
  0
LINE
  5
8F
330
1F
100
AcDbEntity
  8
0
  6
Continuous
 62
     1
370
    25
100
AcDbLine
 10
-403.9284879544
 20
264.8676681366
 30
0.0
 11
-403.9284879544
 21
-49.6973321323
 31
0.0
  0
LINE
  5
90
330
1F
100
AcDbEntity
  8
0
  6
Continuous
 62
     1
370
    25
100
AcDbLine
 10
-404.835512359
 20
265.0851680021
 30
0.0
 11
-404.835512359
 21
-49.9148319979
 31
0.0
  0
LINE
  5
91
330
1F
100
AcDbEntity
  8
0
  6
Continuous
 62
     1
370
    25
100
AcDbLine
 10
-291.7833569912
 20
207.8026678677
 30
0.0
 11
-291.7833569912
 21
7.3676681366
 31
0.0
  0
LINE
  5
92
330
1F
100
AcDbEntity
  8
0
  6
Continuous
 62
     1
370
    25
100
AcDbLine
 10
-290.8763325865
 20
207.5851680021
 30
0.0
 11
-290.8763325865
 21
7.5851680021
 31
0.0
  0
ARC
  5
93
330
1F
100
AcDbEntity
  8
0
  6
Continuous
 62
     7
370
    25
100
AcDbCircle
 10
653.3308664245
 20
-47.9148319979
 30
0.0
 40
2.000000000000025
100
AcDbArc
 50
243.0307524982
 51
270.0
  0
ARC
  5
94
330
1F
100
AcDbEntity
  8
0
  6
Continuous
 62
     7
370
    25
100
AcDbCircle
 10
653.3308664245
 20
263.0851680021
 30
0.0
 40
2.000000000000006
100
AcDbArc
 50
90.0
 51
116.9692475018
  0
LINE
  5
95
330
1F
100
AcDbEntity
  8
0
  6
Continuous
 62
     7
370
    25
100
AcDbLine
 10
653.3308664245
 20
-49.9148319979
 30
0.0
 11
802.8512765382
 21
-49.9148319979
 31
0.0
  0
LINE
  5
96
330
1F
100
AcDbEntity
  8
0
  6
Continuous
 62
     7
370
    25
100
AcDbLine
 10
802.8512765382
 20
265.0851680021
 30
0.0
 11
653.3308664245
 21
265.0851680021
 31
0.0
  0
LINE
  5
97
330
1F
100
AcDbEntity
  8
0
  6
Continuous
 62
     7
370
    25
100
AcDbLine
 10
652.4238420198
 20
264.8676681366
 30
0.0
 11
540.2787110566
 21
207.8026678677
 31
0.0
  0
LINE
  5
98
330
1F
100
AcDbEntity
  8
0
  6
Continuous
 62
     7
370
    25
100
AcDbLine
 10
540.2787110566
 20
7.3676681366
 30
0.0
 11
652.4238420198
 21
-49.6973321323
 31
0.0
  0
ARC
  5
99
330
1F
100
AcDbEntity
  8
0
  6
Continuous
 62
     7
370
    25
100
AcDbCircle
 10
539.3716866519
 20
5.5851680021
 30
0.0
 40
2.000000000000028
100
AcDbArc
 50
63.0307524982
 51
90.0
  0
ARC
  5
9A
330
1F
100
AcDbEntity
  8
0
  6
Continuous
 62
     7
370
    25
100
AcDbCircle
 10
539.3716866519
 20
209.5851680021
 30
0.0
 40
2.000000000000032
100
AcDbArc
 50
270.0
 51
296.9692475018
  0
LINE
  5
9B
330
1F
100
AcDbEntity
  8
0
  6
Continuous
 62
     7
370
    25
100
AcDbLine
 10
422.8512765382
 20
7.5851680021
 30
0.0
 11
539.3716866519
 21
7.5851680021
 31
0.0
  0
LINE
  5
9C
330
1F
100
AcDbEntity
  8
0
  6
Continuous
 62
     7
370
    25
100
AcDbLine
 10
539.3716866519
 20
207.5851680021
 30
0.0
 11
422.8512765382
 21
207.5851680021
 31
0.0
  0
LINE
  5
9D
330
1F
100
AcDbEntity
  8
0
  6
Continuous
 62
     7
370
    25
100
AcDbLine
 10
802.8512765382
 20
107.5851680021
 30
0.0
 11
802.8512765382
 21
265.0851680021
 31
0.0
  0
LINE
  5
9E
330
1F
100
AcDbEntity
  8
0
  6
Continuous
 62
     7
370
    25
100
AcDbLine
 10
802.8512765382
 20
-49.9148319979
 30
0.0
 11
802.8512765382
 21
107.5851680021
 31
0.0
  0
LINE
  5
9F
330
1F
100
AcDbEntity
  8
0
  6
Continuous
 62
     7
370
    25
100
AcDbLine
 10
422.8512765382
 20
107.5851680021
 30
0.0
 11
422.8512765382
 21
207.5851680021
 31
0.0
  0
LINE
  5
A0
330
1F
100
AcDbEntity
  8
0
  6
Continuous
 62
     7
370
    25
100
AcDbLine
 10
422.8512765382
 20
7.5851680021
 30
0.0
 11
422.8512765382
 21
107.5851680021
 31
0.0
  0
LINE
  5
A1
330
1F
100
AcDbEntity
  8
0
  6
Continuous
 62
     1
370
    25
100
AcDbLine
 10
652.4238420198
 20
107.5851680021
 30
0.0
 11
652.4238420198
 21
264.8676681366
 31
0.0
  0
LINE
  5
A2
330
1F
100
AcDbEntity
  8
0
  6
Continuous
 62
     1
370
    25
100
AcDbLine
 10
652.4238420198
 20
-49.6973321323
 30
0.0
 11
652.4238420198
 21
107.5851680021
 31
0.0
  0
LINE
  5
A3
330
1F
100
AcDbEntity
  8
0
  6
Continuous
 62
     1
370
    25
100
AcDbLine
 10
653.3308664245
 20
107.5851680021
 30
0.0
 11
653.3308664245
 21
265.0851680021
 31
0.0
  0
LINE
  5
A4
330
1F
100
AcDbEntity
  8
0
  6
Continuous
 62
     1
370
    25
100
AcDbLine
 10
653.3308664245
 20
-49.9148319979
 30
0.0
 11
653.3308664245
 21
107.5851680021
 31
0.0
  0
LINE
  5
A5
330
1F
100
AcDbEntity
  8
0
  6
Continuous
 62
     1
370
    25
100
AcDbLine
 10
540.2787110566
 20
107.5851680021
 30
0.0
 11
540.2787110566
 21
207.8026678677
 31
0.0
  0
LINE
  5
A6
330
1F
100
AcDbEntity
  8
0
  6
Continuous
 62
     1
370
    25
100
AcDbLine
 10
540.2787110566
 20
7.3676681366
 30
0.0
 11
540.2787110566
 21
107.5851680021
 31
0.0
  0
LINE
  5
A7
330
1F
100
AcDbEntity
  8
0
  6
Continuous
 62
     1
370
    25
100
AcDbLine
 10
539.3716866519
 20
107.5851680021
 30
0.0
 11
539.3716866519
 21
207.5851680021
 31
0.0
  0
LINE
  5
A8
330
1F
100
AcDbEntity
  8
0
  6
Continuous
 62
     1
370
    25
100
AcDbLine
 10
539.3716866519
 20
7.5851680021
 30
0.0
 11
539.3716866519
 21
107.5851680021
 31
0.0
  0
ARC
  5
A9
330
1F
100
AcDbEntity
  8
0
  6
Continuous
 62
     7
370
    25
100
AcDbCircle
 10
294.895004093
 20
590.319039453
 30
0.0
 40
2.0
100
AcDbArc
 50
333.0307524982
 51
0.0
  0
ARC
  5
AA
330
1F
100
AcDbEntity
  8
0
  6
Continuous
 62
     7
370
    25
100
AcDbCircle
 10
-16.104995907
 20
590.319039453
 30
0.0
 40
2.000000000000004
100
AcDbArc
 50
180.0
 51
206.9692475018
  0
LINE
  5
AB
330
1F
100
AcDbEntity
  8
0
  6
Continuous
 62
     7
370
    25
100
AcDbLine
 10
296.895004093
 20
590.319039453
 30
0.0
 11
296.895004093
 21
739.8394495667
 31
0.0
  0
LINE
  5
AC
330
1F
100
AcDbEntity
  8
0
  6
Continuous
 62
     7
370
    25
100
AcDbLine
 10
-18.104995907
 20
739.8394495667
 30
0.0
 11
-18.104995907
 21
590.319039453
 31
0.0
  0
LINE
  5
AD
330
1F
100
AcDbEntity
  8
0
  6
Continuous
 62
     7
370
    25
100
AcDbLine
 10
-17.8874960414
 20
589.4120150483
 30
0.0
 11
39.1775042275
 21
477.2668840851
 31
0.0
  0
LINE
  5
AE
330
1F
100
AcDbEntity
  8
0
  6
Continuous
 62
     7
370
    25
100
AcDbLine
 10
239.6125039586
 20
477.2668840851
 30
0.0
 11
296.6775042275
 21
589.4120150483
 31
0.0
  0
ARC
  5
AF
330
1F
100
AcDbEntity
  8
0
  6
Continuous
 62
     7
370
    25
100
AcDbCircle
 10
241.395004093
 20
476.3598596804
 30
0.0
 40
2.000000000000032
100
AcDbArc
 50
153.0307524982
 51
180.0
  0
ARC
  5
B0
330
1F
100
AcDbEntity
  8
0
  6
Continuous
 62
     7
370
    25
100
AcDbCircle
 10
37.395004093
 20
476.3598596804
 30
0.0
 40
2.000000000000025
100
AcDbArc
 50
0.0
 51
26.9692475018
  0
LINE
  5
B1
330
1F
100
AcDbEntity
  8
0
  6
Continuous
 62
     7
370
    25
100
AcDbLine
 10
239.395004093
 20
359.8394495667
 30
0.0
 11
239.395004093
 21
476.3598596804
 31
0.0
  0
LINE
  5
B2
330
1F
100
AcDbEntity
  8
0
  6
Continuous
 62
     7
370
    25
100
AcDbLine
 10
39.395004093
 20
476.3598596804
 30
0.0
 11
39.395004093
 21
359.8394495667
 31
0.0
  0
LINE
  5
B3
330
1F
100
AcDbEntity
  8
0
  6
Continuous
 62
     7
370
    25
100
AcDbLine
 10
296.895004093
 20
739.8394495667
 30
0.0
 11
-18.104995907
 21
739.8394495667
 31
0.0
  0
LINE
  5
B4
330
1F
100
AcDbEntity
  8
0
  6
Continuous
 62
     7
370
    25
100
AcDbLine
 10
239.395004093
 20
359.8394495667
 30
0.0
 11
39.395004093
 21
359.8394495667
 31
0.0
  0
LINE
  5
B5
330
1F
100
AcDbEntity
  8
0
  6
Continuous
 62
     1
370
    25
100
AcDbLine
 10
296.6775042275
 20
589.4120150483
 30
0.0
 11
-17.8874960414
 21
589.4120150483
 31
0.0
  0
LINE
  5
B6
330
1F
100
AcDbEntity
  8
0
  6
Continuous
 62
     1
370
    25
100
AcDbLine
 10
296.895004093
 20
590.319039453
 30
0.0
 11
-18.104995907
 21
590.319039453
 31
0.0
  0
LINE
  5
B7
330
1F
100
AcDbEntity
  8
0
  6
Continuous
 62
     1
370
    25
100
AcDbLine
 10
239.6125039586
 20
477.2668840851
 30
0.0
 11
39.1775042275
 21
477.2668840851
 31
0.0
  0
LINE
  5
B8
330
1F
100
AcDbEntity
  8
0
  6
Continuous
 62
     1
370
    25
100
AcDbLine
 10
239.395004093
 20
476.3598596804
 30
0.0
 11
39.395004093
 21
476.3598596804
 31
0.0
  0
ARC
  5
B9
330
1F
100
AcDbEntity
  8
0
  6
Continuous
 62
     7
370
    25
100
AcDbCircle
 10
-16.104995907
 20
-421.7938194896
 30
0.0
 40
2.000000000000004
100
AcDbArc
 50
153.0307524982
 51
180.0
  0
ARC
  5
BA
330
1F
100
AcDbEntity
  8
0
  6
Continuous
 62
     7
370
    25
100
AcDbCircle
 10
294.895004093
 20
-421.7938194896
 30
0.0
 40
2.0
100
AcDbArc
 50
0.0
 51
26.9692475018
  0
LINE
  5
BB
330
1F
100
AcDbEntity
  8
0
  6
Continuous
 62
     7
370
    25
100
AcDbLine
 10
-18.104995907
 20
-421.7938194896
 30
0.0
 11
-18.104995907
 21
-571.3142296033
 31
0.0
  0
LINE
  5
BC
330
1F
100
AcDbEntity
  8
0
  6
Continuous
 62
     7
370
    25
100
AcDbLine
 10
296.895004093
 20
-571.3142296033
 30
0.0
 11
296.895004093
 21
-421.7938194896
 31
0.0
  0
LINE
  5
BD
330
1F
100
AcDbEntity
  8
0
  6
Continuous
 62
     7
370
    25
100
AcDbLine
 10
296.6775042275
 20
-420.8867950849
 30
0.0
 11
239.6125039586
 21
-308.7416641217
 31
0.0
  0
LINE
  5
BE
330
1F
100
AcDbEntity
  8
0
  6
Continuous
 62
     7
370
    25
100
AcDbLine
 10
39.1775042275
 20
-308.7416641217
 30
0.0
 11
-17.8874960414
 21
-420.8867950849
 31
0.0
  0
ARC
  5
BF
330
1F
100
AcDbEntity
  8
0
  6
Continuous
 62
     7
370
    25
100
AcDbCircle
 10
37.395004093
 20
-307.834639717
 30
0.0
 40
2.000000000000025
100
AcDbArc
 50
333.0307524982
 51
0.0
  0
ARC
  5
C0
330
1F
100
AcDbEntity
  8
0
  6
Continuous
 62
     7
370
    25
100
AcDbCircle
 10
241.395004093
 20
-307.834639717
 30
0.0
 40
2.000000000000032
100
AcDbArc
 50
180.0
 51
206.9692475018
  0
LINE
  5
C1
330
1F
100
AcDbEntity
  8
0
  6
Continuous
 62
     7
370
    25
100
AcDbLine
 10
39.395004093
 20
-191.3142296033
 30
0.0
 11
39.395004093
 21
-307.834639717
 31
0.0
  0
LINE
  5
C2
330
1F
100
AcDbEntity
  8
0
  6
Continuous
 62
     7
370
    25
100
AcDbLine
 10
239.395004093
 20
-307.834639717
 30
0.0
 11
239.395004093
 21
-191.3142296033
 31
0.0
  0
LINE
  5
C3
330
1F
100
AcDbEntity
  8
0
  6
Continuous
 62
     7
370
    25
100
AcDbLine
 10
-18.104995907
 20
-571.3142296033
 30
0.0
 11
296.895004093
 21
-571.3142296033
 31
0.0
  0
LINE
  5
C4
330
1F
100
AcDbEntity
  8
0
  6
Continuous
 62
     7
370
    25
100
AcDbLine
 10
39.395004093
 20
-191.3142296033
 30
0.0
 11
239.395004093
 21
-191.3142296033
 31
0.0
  0
LINE
  5
C5
330
1F
100
AcDbEntity
  8
0
  6
Continuous
 62
     1
370
    25
100
AcDbLine
 10
-17.8874960414
 20
-420.8867950849
 30
0.0
 11
296.6775042275
 21
-420.8867950849
 31
0.0
  0
LINE
  5
C6
330
1F
100
AcDbEntity
  8
0
  6
Continuous
 62
     1
370
    25
100
AcDbLine
 10
-18.104995907
 20
-421.7938194896
 30
0.0
 11
296.895004093
 21
-421.7938194896
 31
0.0
  0
LINE
  5
C7
330
1F
100
AcDbEntity
  8
0
  6
Continuous
 62
     1
370
    25
100
AcDbLine
 10
39.1775042275
 20
-308.7416641217
 30
0.0
 11
239.6125039586
 21
-308.7416641217
 31
0.0
  0
LINE
  5
C8
330
1F
100
AcDbEntity
  8
0
  6
Continuous
 62
     1
370
    25
100
AcDbLine
 10
39.395004093
 20
-307.834639717
 30
0.0
 11
239.395004093
 21
-307.834639717
 31
0.0
  0
LINE
  5
C9
330
1F
100
AcDbEntity
  8
0
  6
Continuous
 62
     7
370
    25
100
AcDbLine
 10
699.709309812
 20
-211.3541598222
 30
0.0
 11
593.9824138948
 21
-150.3193219723
 31
0.0
  0
LINE
  5
CA
330
1F
100
AcDbEntity
  8
0
  6
Continuous
 62
     7
370
    25
100
AcDbLine
 10
436.4952135046
 20
-423.1247136222
 30
0.0
 11
542.2221094218
 21
-484.1595514722
 31
0.0
  0
SPLINE
  5
CB
330
1F
100
AcDbEntity
  8
0
  6
Continuous
 62
     7
370
    25
100
AcDbSpline
210
0.0
220
0.0
230
1.0
 70
     8
 71
     3
 72
    11
 73
     7
 74
     0
 42
0.00000001
 43
0.00000001
 40
0.0
 40
0.0
 40
0.0
 40
0.0
 40
0.1722885872861427
 40
0.5319438262727738
 40
0.8910252077268673
 40
1.0
 40
1.0
 40
1.0
 40
1.0
 10
716.9108030575662
 20
-226.9436436131587
 30
0.0
 10
716.5018000183293
 20
-226.3764504561842
 30
0.0
 10
715.238996456724
 20
-224.625232323229
 30
0.0
 10
712.9025094078072
 20
-221.9670916433168
 30
0.0
 10
710.6574554681675
 20
-219.5955848105862
 30
0.0
 10
709.2796787433736
 20
-218.4083482640281
 30
0.0
 10
708.958899014762
 20
-218.1319308951255
 30
0.0
  0
SPLINE
  5
CC
330
1F
100
AcDbEntity
  8
0
  6
Continuous
 62
     7
370
    25
100
AcDbSpline
210
0.0
220
0.0
230
1.0
 70
     8
 71
     3
 72
    10
 73
     6
 74
     0
 42
0.00000001
 43
0.00000001
 40
0.0
 40
0.0
 40
0.0
 40
0.0
 40
0.0635054457084586
 40
0.5632892566991056
 40
1.0
 40
1.0
 40
1.0
 40
1.0
 10
552.977009750574
 20
-488.8801297453018
 30
0.0
 10
553.143576145253
 20
-488.9389678747451
 30
0.0
 10
554.621009452004
 20
-489.460858333586
 30
0.0
 10
557.3563263159614
 20
-490.1512881126821
 30
0.0
 10
559.9861564827235
 20
-490.6274448394396
 30
0.0
 10
561.2125118113462
 20
-490.8494885845069
 30
0.0
  0
LINE
  5
CD
330
1F
100
AcDbEntity
  8
0
  6
Continuous
 62
     7
370
    25
100
AcDbLine
 10
576.540236163
 20
-491.5545555823
 30
0.0
 11
672.1899006399
 21
-485.2945214871
 31
0.0
  0
LINE
  5
CE
330
1F
100
AcDbEntity
  8
0
  6
Continuous
 62
     7
370
    25
100
AcDbLine
 10
765.686626741
 20
-323.335892984
 30
0.0
 11
723.2750764383
 21
-237.3748160808
 31
0.0
  0
LINE
  5
CF
330
1F
100
AcDbEntity
  8
0
  6
Continuous
 62
     7
370
    25
100
AcDbLine
 10
833.9353271824
 20
-355.2346728055
 30
0.0
 11
760.5123401443
 21
-312.8484846038
 31
0.0
  0
LINE
  5
D0
330
1F
100
AcDbEntity
  8
0
  6
Continuous
 62
     7
370
    25
100
AcDbLine
 10
660.5204668807
 20
-486.0582570799
 30
0.0
 11
733.9434539188
 21
-528.4444452816
 31
0.0
  0
LWPOLYLINE
  5
D1
330
1F
100
AcDbEntity
  8
0
  6
Continuous
 62
     7
370
    25
100
AcDbPolyline
 90
      134
 70
   128
 43
0.0
 10
403.8694956628
 20
-351.0141566033
 10
403.993749911
 20
-344.8691206712
 10
404.366235396
 20
-338.5943358157
 10
404.9861209568
 20
-332.2038035355
 10
405.8520233864
 20
-325.7117836069
 10
406.962010518
 20
-319.1327622649
 10
408.3136055362
 20
-312.4814198786
 10
409.9037925039
 20
-305.7725981938
 10
411.7290230924
 20
-299.0212672149
 10
413.7852244984
 20
-292.2424918013
 10
416.0678085326
 20
-285.4513980515
 10
418.5716818574
 20
-278.6631395512
 10
421.2912573525
 20
-271.8928635595
 10
424.2204665814
 20
-265.1556772094
 10
427.3527733329
 20
-258.4666137981
 10
430.681188206
 20
-251.8405992417
 10
434.1982842055
 20
-245.2924187695
 10
437.896213315
 20
-238.8366839326
 10
441.7667240087
 20
-232.4877999998
 10
445.8011796637
 20
-226.2599338138
 10
449.990577832
 20
-220.1669821792
 10
454.325570328
 20
-214.2225408535
 10
458.7964840885
 20
-208.4398742099
 10
463.3933427566
 20
-202.8318856388
 10
468.1058889431
 20
-197.4110887554
 10
472.9236071148
 20
-192.1895794774
 10
477.8357470587
 20
-187.1790090336
 10
482.8313478696
 20
-182.3905579659
 10
487.8992624089
 20
-177.8349111811
 10
493.0281821774
 20
-173.5222341085
 10
498.2066625498
 20
-169.462150017
 10
503.4231483113
 20
-165.6637185418
 10
508.6659994426
 20
-162.1354154688
 10
513.9235170925
 20
-158.8851138218
 10
519.1839696835
 20
-155.9200662948
 10
524.4356190889
 20
-153.246889068
 10
529.6667468252
 20
-150.8715470453
 10
534.8656802011
 20
-148.7993405435
 10
540.0208183633
 20
-147.0348934656
 10
545.1206581828
 20
-145.5821429829
 10
550.1538199227
 20
-144.4443307498
 10
555.1090726312
 20
-143.6239956703
 10
559.9753592018
 20
-143.1229682328
 10
564.7418210464
 20
-142.9423664254
 10
569.3978223248
 20
-143.0825932413
 10
573.9329736776
 20
-143.5433357797
 10
578.3371554086
 20
-144.3235659438
 10
582.6005400665
 20
-145.4215427351
 10
586.7136143728
 20
-146.8348161379
 10
590.6672004506
 20
-148.5602325867
 10
594.4524763033
 20
-150.5939420028
 10
598.0609955004
 20
-152.9314063851
 10
601.4847060245
 20
-155.5674099366
 10
604.7159682387
 20
-158.4960707028
 10
607.7475719335
 20
-161.7108536962
 10
610.5727524157
 20
-165.2045854789
 10
613.1852056029
 20
-168.9694701692
 10
615.5791020904
 20
-172.9971068372
 10
617.7491001592
 20
-177.2785082506
 10
619.6903576951
 20
-181.8041209287
 10
621.3985429933
 20
-186.56384646
 10
622.8698444247
 20
-191.5470640357
 10
624.1009789403
 20
-196.7426541488
 10
625.0891993976
 20
-202.1390234062
 10
625.8323006904
 20
-207.7241303979
 10
626.3286246692
 20
-213.4855125665
 10
626.5770638411
 20
-219.4103140153
 10
626.5770638411
 20
-225.4853141957
 10
626.3286246692
 20
-231.6969574068
 10
625.8323006904
 20
-238.0313830437
 10
625.0891993976
 20
-244.4744565258
 10
624.1009789403
 20
-251.0118008369
 10
622.8698444247
 20
-257.6288286056
 10
621.3985429933
 20
-264.3107746554
 10
619.6903576951
 20
-271.042728952
 10
617.7491001592
 20
-277.809669873
 10
615.5791020904
 20
-284.5964977271
 10
613.1852056029
 20
-291.3880684477
 10
610.5727524157
 20
-298.1692273847
 10
607.7475719335
 20
-304.924843121
 10
604.7159682387
 20
-311.6398412362
 10
601.4847060245
 20
-318.299237944
 10
598.0609955004
 20
-324.8881735262
 10
594.4524763033
 20
-331.3919454911
 10
590.6672004506
 20
-337.7960413803
 10
586.7136143728
 20
-344.0861711519
 10
582.6005400665
 20
-350.2482990666
 10
578.3371554086
 20
-356.2686750076
 10
573.9329736776
 20
-362.133865162
 10
569.3978223248
 20
-367.8307819972
 10
564.7418210464
 20
-373.346713464
 10
559.9753592018
 20
-378.6693513626
 10
555.1090726312
 20
-383.7868188065
 10
550.1538199227
 20
-388.6876967249
 10
545.1206581828
 20
-393.3610493426
 10
540.0208183633
 20
-397.7964485826
 10
534.8656802011
 20
-401.9839973349
 10
529.6667468252
 20
-405.9143515408
 10
524.4356190889
 20
-409.5787410432
 10
519.1839696835
 20
-412.9689891563
 10
513.9235170925
 20
-416.0775309108
 10
508.6659994426
 20
-418.8974299346
 10
503.4231483113
 20
-421.4223939303
 10
498.2066625498
 20
-423.6467887159
 10
493.0281821774
 20
-425.5656507969
 10
487.8992624088
 20
-427.1746984417
 10
482.8313478696
 20
-428.4703412357
 10
477.8357470587
 20
-429.4496880933
 10
472.9236071148
 20
-430.1105537087
 10
468.1058889431
 20
-430.4514634323
 10
463.3933427566
 20
-430.4716565612
 10
458.7964840885
 20
-430.1710880366
 10
454.325570328
 20
-429.5504285444
 10
449.990577832
 20
-428.6110630187
 10
445.8011796637
 20
-427.3550875512
 10
441.7667240087
 20
-425.7853047144
 10
437.896213315
 20
-423.9052173076
 10
434.1982842055
 20
-421.7190205409
 10
430.681188206
 20
-419.2315926741
 10
427.3527733329
 20
-416.4484841315
 10
424.2204665814
 20
-413.3759051166
 10
421.2912573525
 20
-410.0207117544
 10
418.5716818574
 20
-406.3903907935
 10
416.0678085326
 20
-402.4930428993
 10
413.7852244984
 20
-398.337364579
 10
411.7290230924
 20
-393.9326287758
 10
409.9037925039
 20
-389.2886641778
 10
408.3136055362
 20
-384.4158332858
 10
406.962010518
 20
-379.325009291
 10
405.8520233864
 20
-374.0275518122
 10
404.9861209568
 20
-368.5352815486
 10
404.3662353959
 20
-362.8604539027
 10
403.993749911
 20
-357.015731634
 10
403.8694956628
 20
-351.0141566033
  0
LWPOLYLINE
  5
D2
330
1F
100
AcDbEntity
  8
0
  6
Continuous
 62
     7
370
    25
100
AcDbPolyline
 90
      121
 70
   128
 43
0.0
 10
424.0927496047
 20
-339.3395206042
 10
424.2176621178
 20
-333.7589402878
 10
424.5920572806
 20
-328.0494350363
 10
425.214908902
 20
-322.2266542067
 10
426.0845097889
 20
-316.3065576367
 10
427.1984764258
 20
-310.3053718994
 10
428.5537555075
 20
-304.2395458277
 10
430.1466323084
 20
-298.1257054293
 10
431.9727408637
 20
-291.9806083158
 10
434.027075937
 20
-285.8210977712
 10
436.3040067385
 20
-279.6640565858
 10
438.7972923592
 20
-273.5263607814
 10
441.5000988765
 20
-267.4248333557
 10
444.4050180856
 20
-261.3761981713
 10
447.5040878049
 20
-255.3970341166
 10
450.7888136997
 20
-249.5037296649
 10
454.2501925646
 20
-243.7124379539
 10
457.8787370008
 20
-238.0390325117
 10
461.6645014202
 20
-232.4990637483
 10
465.5971093056
 20
-227.1077163329
 10
469.6657816522
 20
-221.8797675741
 10
473.8593665119
 20
-216.8295469161
 10
478.1663695601
 20
-211.9708966625
 10
482.5749856008
 20
-207.3171340361
 10
487.0731309239
 20
-202.8810146767
 10
491.6484764258
 20
-198.6746976792
 10
496.2884814023
 20
-194.709712266
 10
500.9804279225
 20
-190.9969261865
 10
505.7114556869
 20
-187.5465159294
 10
510.4685972775
 20
-184.3679388294
 10
515.2388136997
 20
-181.4699071452
 10
520.0090301219
 20
-178.8603641803
 10
524.7661717124
 20
-176.5464625107
 10
529.4971994769
 20
-174.5345443798
 10
534.189145997
 20
-172.8301243156
 10
538.8291509736
 20
-171.4378740148
 10
543.4044964754
 20
-170.3616095389
 10
547.9026417985
 20
-169.6042808538
 10
552.3112578392
 20
-169.167963745
 10
556.6182608874
 20
-169.0538541273
 10
560.8118457471
 20
-169.2622647671
 10
564.8805180938
 20
-169.7926244255
 10
568.8131259792
 20
-170.6434794235
 10
572.5988903986
 20
-171.8124976266
 10
576.2274348347
 20
-173.2964748373
 10
579.6888136997
 20
-175.0913435771
 10
582.9735395945
 20
-177.1921842355
 10
586.0726093138
 20
-179.5932385545
 10
588.9775285229
 20
-182.2879254109
 10
591.6803350402
 20
-185.2688588554
 10
594.1736206609
 20
-188.5278683567
 10
596.4505514624
 20
-192.0560211962
 10
598.5048865356
 20
-195.8436469522
 10
600.330995091
 20
-199.8803640058
 10
601.9238718918
 20
-204.1551079962
 10
603.2791509736
 20
-208.6561621472
 10
604.3931176105
 20
-213.3711893822
 10
605.2627184974
 20
-218.2872661394
 10
605.8855701187
 20
-223.390917794
 10
606.2599652815
 20
-228.6681555916
 10
606.3848777946
 20
-234.1045149903
 10
606.2599652815
 20
-239.6850953067
 10
605.8855701187
 20
-245.3946005583
 10
605.2627184974
 20
-251.2173813878
 10
604.3931176105
 20
-257.1374779578
 10
603.2791509736
 20
-263.1386636952
 10
601.9238718918
 20
-269.2044897668
 10
600.330995091
 20
-275.3183301652
 10
598.5048865356
 20
-281.4634272787
 10
596.4505514624
 20
-287.6229378233
 10
594.1736206609
 20
-293.7799790088
 10
591.6803350402
 20
-299.9176748131
 10
588.9775285229
 20
-306.0192022388
 10
586.0726093138
 20
-312.0678374233
 10
582.9735395945
 20
-318.0470014779
 10
579.6888136997
 20
-323.9403059296
 10
576.2274348347
 20
-329.7315976406
 10
572.5988903986
 20
-335.4050030828
 10
568.8131259792
 20
-340.9449718462
 10
564.8805180938
 20
-346.3363192616
 10
560.8118457471
 20
-351.5642680204
 10
556.6182608874
 20
-356.6144886785
 10
552.3112578392
 20
-361.473138932
 10
547.9026417985
 20
-366.1269015584
 10
543.4044964754
 20
-370.5630209178
 10
538.8291509736
 20
-374.7693379154
 10
534.189145997
 20
-378.7343233285
 10
529.4971994769
 20
-382.447109408
 10
524.7661717124
 20
-385.8975196651
 10
520.0090301219
 20
-389.0760967652
 10
515.2388136997
 20
-391.9741284493
 10
510.4685972775
 20
-394.5836714142
 10
505.7114556869
 20
-396.8975730839
 10
500.9804279225
 20
-398.9094912147
 10
496.2884814023
 20
-400.613911279
 10
491.6484764258
 20
-402.0061615797
 10
487.0731309239
 20
-403.0824260557
 10
482.5749856008
 20
-403.8397547407
 10
478.1663695601
 20
-404.2760718495
 10
473.8593665119
 20
-404.3901814672
 10
469.6657816522
 20
-404.1817708274
 10
465.5971093056
 20
-403.651411169
 10
461.6645014202
 20
-402.800556171
 10
457.8787370008
 20
-401.6315379679
 10
454.2501925646
 20
-400.1475607572
 10
450.7888136997
 20
-398.3526920174
 10
447.5040878049
 20
-396.251851359
 10
444.4050180856
 20
-393.85079704
 10
441.5000988765
 20
-391.1561101836
 10
438.7972923592
 20
-388.1751767391
 10
436.3040067385
 20
-384.9161672378
 10
434.027075937
 20
-381.3880143983
 10
431.9727408637
 20
-377.6003886423
 10
430.1466323084
 20
-373.5636715887
 10
428.5537555075
 20
-369.2889275983
 10
427.1984764258
 20
-364.7878734473
 10
426.0845097889
 20
-360.0728462123
 10
425.214908902
 20
-355.1567694551
 10
424.5920572806
 20
-350.0531178005
 10
424.2176621178
 20
-344.7758800029
 10
424.0927496047
 20
-339.3395206042
  0
ARC
  5
D3
330
1F
100
AcDbEntity
  8
0
  6
Continuous
 62
     7
370
    25
100
AcDbCircle
 10
673.0934877905
 20
-257.3987757505
 30
0.0
 40
53.18372531009982
100
AcDbArc
 50
47.8942400349
 51
59.9701905594
  0
ARC
  5
D4
330
1F
100
AcDbEntity
  8
0
  6
Continuous
 62
     7
370
    25
100
AcDbCircle
 10
568.8264471941
 20
-437.9956447996
 30
0.0
 40
53.28130129394347
100
AcDbArc
 50
240.0450795139
 51
252.3942086406
  0
ARC
  5
D5
330
1F
100
AcDbEntity
  8
0
  6
Continuous
 62
     7
370
    25
100
AcDbCircle
 10
650.3786307242
 20
-273.9918801326
 30
0.0
 40
81.50973850994234
100
AcDbArc
 50
9.4161776407
 51
35.1188947969
  0
ARC
  5
D6
330
1F
100
AcDbEntity
  8
0
  6
Continuous
 62
     7
370
    25
100
AcDbCircle
 10
572.3069283431
 20
-413.6058274568
 30
0.0
 40
78.02663590577431
100
AcDbArc
 50
262.0039249044
 51
290.0159250678
  0
ARC
  5
D7
330
1F
100
AcDbEntity
  8
0
  6
Continuous
 62
     7
370
    25
100
AcDbCircle
 10
718.044542937
 20
-346.6421996927
 30
0.0
 40
53.03727068378373
100
AcDbArc
 50
15.21514843
 51
26.0676855408
  0
ARC
  5
D8
330
1F
100
AcDbEntity
  8
0
  6
Continuous
 62
     7
370
    25
100
AcDbCircle
 10
668.297312546
 20
-430.678177085
 30
0.0
 40
54.7548839640738
100
AcDbArc
 50
274.0766621064
 51
286.5792380853
  0
LWPOLYLINE
  5
D9
330
1F
100
AcDbEntity
  8
0
  6
Continuous
 62
     7
370
    25
100
AcDbPolyline
 90
       55
 70
   128
 43
0.0
 10
833.9353271824
 20
-355.2346728055
 10
834.6748152512
 20
-355.6743875173
 10
837.5035241663
 20
-357.6120526583
 10
840.1440871085
 20
-359.8455699873
 10
842.5872290042
 20
-362.3670941932
 10
844.8243682284
 20
-365.1677683305
 10
846.8476467479
 20
-368.2377549289
 10
848.6499577231
 20
-371.5662705487
 10
850.2249704711
 20
-375.1416236572
 10
851.5671527021
 20
-378.9512556964
 10
852.6717899521
 20
-382.9817851947
 10
853.5350021424
 20
-387.2190547702
 10
854.1537572087
 20
-391.6481808591
 10
854.5258817513
 20
-396.2536059945
 10
854.6500686692
 20
-401.0191534524
 10
854.5258817513
 20
-405.9280840738
 10
854.1537572087
 20
-410.9631550608
 10
853.5350021424
 20
-416.1066805429
 10
852.6717899521
 20
-421.3405936992
 10
851.5671527021
 20
-426.6465102189
 10
850.2249704711
 20
-432.0057928767
 10
848.6499577231
 20
-437.3996169969
 10
846.8476467479
 20
-442.8090365754
 10
844.8243682284
 20
-448.2150508287
 10
842.5872290042
 20
-453.5986709346
 10
840.1440871085
 20
-458.9409867311
 10
837.5035241663
 20
-464.2232331391
 10
834.6748152512
 20
-469.4268560755
 10
831.6678963065
 20
-474.533577625
 10
828.4933292445
 20
-479.5254602418
 10
825.162264848
 20
-484.3849697561
 10
821.686403602
 20
-489.0950369637
 10
818.0779545961
 20
-493.6391175816
 10
814.3495926388
 20
-498.0012503609
 10
810.5144137376
 20
-502.1661131512
 10
806.5858890982
 20
-506.11907672
 10
802.5778178067
 20
-509.8462561386
 10
798.5042783597
 20
-513.3345595533
 10
794.3795792131
 20
-516.5717341712
 10
790.218208523
 20
-519.5464092984
 10
786.0347832558
 20
-522.2481362801
 10
781.8439978453
 20
-524.6674252015
 10
777.6605725781
 20
-526.7957782223
 10
773.4992018881
 20
-528.6257194247
 10
769.3745027414
 20
-530.1508210735
 10
765.3009632944
 20
-531.3657261937
 10
761.292892003
 20
-532.2661673866
 10
757.3643673636
 20
-532.8489818197
 10
753.5291884624
 20
-533.112122336
 10
749.8008265051
 20
-533.054664645
 10
746.1923774991
 20
-532.6768105688
 10
742.7165162531
 20
-531.9798873337
 10
739.3854518566
 20
-530.9663429079
 10
736.2108847946
 20
-529.6397374032
 10
733.9434539188
 20
-528.4444452816
  0
LWPOLYLINE
  5
DA
330
1F
100
AcDbEntity
  8
0
  6
Continuous
 62
     1
370
    25
100
AcDbPolyline
 90
       63
 70
   128
 43
0.0
 10
708.753239786
 20
-217.9413211255
 10
710.4428641559
 20
-219.5309085527
 10
713.4744678507
 20
-222.7456915461
 10
716.2996483329
 20
-226.2394233288
 10
718.9121015201
 20
-230.0043080191
 10
721.3059980076
 20
-234.0319446871
 10
723.4759960764
 20
-238.3133461005
 10
725.4172536123
 20
-242.8389587786
 10
727.1254389105
 20
-247.5986843099
 10
728.5967403419
 20
-252.5819018856
 10
729.8278748575
 20
-257.7774919987
 10
730.8160953148
 20
-263.1738612561
 10
731.5591966076
 20
-268.7589682479
 10
732.0555205864
 20
-274.5203504164
 10
732.3039597583
 20
-280.4451518653
 10
732.3039597583
 20
-286.5201520456
 10
732.0555205864
 20
-292.7317952567
 10
731.5591966076
 20
-299.0662208936
 10
730.8160953148
 20
-305.5092943758
 10
729.8278748575
 20
-312.0466386869
 10
728.5967403419
 20
-318.6636664555
 10
727.1254389105
 20
-325.3456125054
 10
725.4172536123
 20
-332.077566802
 10
723.4759960764
 20
-338.844507723
 10
721.3059980076
 20
-345.6313355771
 10
718.9121015201
 20
-352.4229062976
 10
716.2996483329
 20
-359.2040652346
 10
713.4744678507
 20
-365.9596809709
 10
710.4428641559
 20
-372.6746790862
 10
707.2116019417
 20
-379.3340757939
 10
703.7878914175
 20
-385.9230113761
 10
700.1793722205
 20
-392.426783341
 10
696.3940963678
 20
-398.8308792303
 10
692.44051029
 20
-405.1210090018
 10
688.3274359837
 20
-411.2831369165
 10
684.0640513258
 20
-417.3035128575
 10
679.6598695948
 20
-423.1687030119
 10
675.124718242
 20
-428.8656198471
 10
670.4687169636
 20
-434.381551314
 10
665.702255119
 20
-439.7041892126
 10
660.8359685484
 20
-444.8216566565
 10
655.8807158399
 20
-449.7225345748
 10
650.8475541
 20
-454.3958871925
 10
645.7477142805
 20
-458.8312864326
 10
640.5925761183
 20
-463.0188351849
 10
635.3936427424
 20
-466.9491893908
 10
630.1625150061
 20
-470.6135788932
 10
624.9108656007
 20
-474.0038270062
 10
619.6504130097
 20
-477.1123687607
 10
614.3928953598
 20
-479.9322677845
 10
609.1500442285
 20
-482.4572317802
 10
603.933558467
 20
-484.6816265659
 10
598.7550780946
 20
-486.6004886469
 10
593.626158326
 20
-488.2095362916
 10
588.5582437868
 20
-489.5051790856
 10
583.5626429758
 20
-490.4845259433
 10
578.650503032
 20
-491.1453915586
 10
573.8327848603
 20
-491.4863012822
 10
569.1202386738
 20
-491.5064944111
 10
564.5233800057
 20
-491.2059258865
 10
560.0524662452
 20
-490.5852663943
 10
555.7174737492
 20
-489.6459008686
 10
552.7106525379
 20
-488.7812552634
  0
LWPOLYLINE
  5
DB
330
1F
100
AcDbEntity
  8
0
  6
Continuous
 62
     1
370
    25
100
AcDbPolyline
 90
       25
 70
   128
 43
0.0
 10
530.6147531407
 20
-381.5893351357
 10
531.3027238149
 20
-377.0477396815
 10
532.4166904518
 20
-371.0465539442
 10
533.7719695335
 20
-364.9807278725
 10
535.3648463344
 20
-358.8668874741
 10
537.1909548897
 20
-352.7217903606
 10
539.245289963
 20
-346.562279816
 10
541.5222207645
 20
-340.4052386306
 10
544.0155063852
 20
-334.2675428262
 10
546.7183129025
 20
-328.1660154005
 10
549.6232321116
 20
-322.1173802161
 10
552.7223018309
 20
-316.1382161614
 10
556.0070277257
 20
-310.2449117097
 10
559.4684065906
 20
-304.4536199987
 10
563.0969510268
 20
-298.7802145565
 10
566.8827154462
 20
-293.2402457931
 10
570.8153233316
 20
-287.8488983777
 10
574.8839956782
 20
-282.6209496189
 10
579.0775805379
 20
-277.5707289609
 10
583.3845835861
 20
-272.7120787073
 10
587.7931996269
 20
-268.0583160809
 10
592.29134495
 20
-263.6221967215
 10
596.8666904518
 20
-259.415879724
 10
601.5066954283
 20
-255.4508943108
 10
605.0810882847
 20
-252.5958825037
  0
LWPOLYLINE
  5
DC
330
1F
100
AcDbEntity
  8
0
  6
Continuous
 62
     1
370
    25
100
AcDbPolyline
 90
       44
 70
   128
 43
0.0
 10
730.7901075628
 20
-260.6565186976
 10
731.3057603641
 20
-263.6609173122
 10
732.0478354701
 20
-269.2383115419
 10
732.5434740496
 20
-274.991737521
 10
732.791570139
 20
-280.9083571062
 10
732.791570139
 20
-286.9749680058
 10
732.5434740496
 20
-293.1780332387
 10
732.0478354701
 20
-299.5037113408
 10
731.3057603641
 20
-305.9378872508
 10
730.3189045914
 20
-312.4662038063
 10
729.0894702129
 20
-319.0740937804
 10
727.6202005775
 20
-325.7468123866
 10
725.9143742003
 20
-332.4694701807
 10
723.975797447
 20
-339.2270662842
 10
721.8087960404
 20
-346.0045218581
 10
719.4182054078
 20
-352.7867137487
 10
716.8093598919
 20
-359.5585082339
 10
713.988080847
 20
-366.3047947923
 10
710.9606636499
 20
-373.0105198206
 10
707.7338636522
 20
-379.6607202243
 10
704.3148811064
 20
-386.2405568059
 10
700.7113450994
 20
-392.7353473769
 10
696.9312965291
 20
-399.1305995202
 10
692.9831701621
 20
-405.4120429274
 10
688.875775812
 20
-411.5656612422
 10
684.6182786817
 20
-417.5777233358
 10
680.2201789121
 20
-423.4348139469
 10
675.6912903836
 20
-429.1238636161
 10
671.0417188173
 20
-434.632177849
 10
666.2818392254
 20
-439.9474654427
 10
661.4222727607
 20
-445.0578659121
 10
656.473863016
 20
-449.9519759556
 10
651.4476518284
 20
-454.6188748998
 10
646.3548546406
 20
-459.0481490685
 10
641.2068354743
 20
-463.229915019
 10
636.0150815734
 20
-467.1548415963
 10
630.7911777709
 20
-470.8141707544
 10
625.5467806388
 20
-474.1997370991
 10
620.2935924778
 20
-477.3039861082
 10
615.0433352049
 20
-480.1199909881
 10
609.807724197
 20
-482.6414681309
 10
604.5984421494
 20
-484.8627911352
 10
599.4271130074
 20
-486.7790033606
 10
599.0139877183
 20
-486.9194611841
  0
LWPOLYLINE
  5
DD
330
1F
100
AcDbEntity
  8
0
  6
Continuous
 62
     1
370
    25
100
AcDbPolyline
 90
       37
 70
   128
 43
0.0
 10
769.2227056261
 20
-332.722869775
 10
769.7875475831
 20
-334.91941457
 10
770.6526372587
 20
-339.1659002012
 10
771.2727381165
 20
-343.6046596334
 10
771.6456720295
 20
-348.2201015622
 10
771.7701290538
 20
-352.9960140795
 10
771.6456720295
 20
-357.9156216184
 10
771.2727381165
 20
-362.961643878
 10
770.6526372587
 20
-368.1163565211
 10
769.7875475831
 20
-373.3616534315
 10
768.6805077486
 20
-378.6791103125
 10
767.335406273
 20
-384.0500494029
 10
765.7569678744
 20
-389.4556050832
 10
763.9507368752
 20
-394.876790142
 10
761.9230577277
 20
-400.2945624691
 10
759.6810527287
 20
-405.6898919414
 10
757.2325970027
 20
-411.0438272676
 10
754.5862908396
 20
-416.3375625545
 10
751.7514294864
 20
-421.5525033638
 10
748.737970497
 20
-426.6703320258
 10
745.556498756
 20
-431.6730719805
 10
742.2181892989
 20
-436.5431509216
 10
738.7347680594
 20
-441.263462519
 10
735.1184706817
 20
-445.8174265061
 10
731.3819995421
 20
-450.1890469183
 10
727.538479132
 20
-454.3629682796
 10
723.6014099568
 20
-458.3245295388
 10
719.5846211156
 20
-462.0598155676
 10
715.5022217258
 20
-465.5557060376
 10
711.3685513641
 20
-468.799921506
 10
707.1981296983
 20
-471.7810665476
 10
703.0056054868
 20
-474.4886697818
 10
698.8057051237
 20
-476.9132206534
 10
694.6131809122
 20
-479.0462028391
 10
690.4427592465
 20
-480.8801241611
 10
686.3090888847
 20
-482.408542904
 10
683.9211306699
 20
-483.1566834009
  0
LWPOLYLINE
  5
DE
330
1F
100
AcDbEntity
  8
0
  6
Continuous
 62
     1
370
    25
100
AcDbPolyline
 90
       25
 70
   128
 43
0.0
 10
532.9827584971
 20
-379.7170434711
 10
533.2822186489
 20
-377.8485683417
 10
534.391486147
 20
-371.8726979087
 10
535.7410481415
 20
-365.8324598191
 10
537.3272055768
 20
-359.7444099457
 10
539.1456109055
 20
-353.6252352099
 10
541.1912800051
 20
-347.4917078444
 10
543.4586058387
 20
-341.3606394214
 10
545.9413738239
 20
-335.2488347732
 10
548.6327788661
 20
-329.1730459316
 10
551.5254440113
 20
-323.1499262114
 10
554.6114406653
 20
-317.1959845652
 10
557.8823103258
 20
-311.3275403331
 10
561.3290877664
 20
-305.5606785129
 10
564.9423256097
 20
-299.911205672
 10
568.712120222
 20
-294.3946066227
 10
572.6281388583
 20
-289.0260019796
 10
576.6796479837
 20
-283.8201067148
 10
580.8555426932
 20
-278.7911898255
 10
585.1443771498
 20
-273.9530352232
 10
589.5343959563
 20
-269.3189039533
 10
594.0135663763
 20
-264.9014978477
 10
598.5696113151
 20
-260.7129247094
 10
603.1900429701
 20
-256.7646651262
 10
604.6439191052
 20
-255.5828221672
  0
LWPOLYLINE
  5
DF
330
1F
100
AcDbEntity
  8
0
  6
Continuous
 62
     1
370
    25
100
AcDbPolyline
 90
       45
 70
   128
 43
0.0
 10
764.0283342462
 20
-319.9748130975
 10
764.4552746098
 20
-320.673650924
 10
766.2575855851
 20
-324.0021665438
 10
767.8325983331
 20
-327.5775196524
 10
769.1747805641
 20
-331.3871516915
 10
770.279417814
 20
-335.4176811898
 10
771.1426300043
 20
-339.6549507654
 10
771.7613850706
 20
-344.0840768543
 10
772.1335096133
 20
-348.6895019896
 10
772.2576965312
 20
-353.4550494476
 10
772.1335096133
 20
-358.363980069
 10
771.7613850706
 20
-363.3990510559
 10
771.1426300043
 20
-368.542576538
 10
770.279417814
 20
-373.7764896943
 10
769.1747805641
 20
-379.082406214
 10
767.8325983331
 20
-384.4416888719
 10
766.2575855851
 20
-389.835512992
 10
764.4552746098
 20
-395.2449325705
 10
762.4319960903
 20
-400.6509468238
 10
760.1948568662
 20
-406.0345669297
 10
757.7517149705
 20
-411.3768827262
 10
755.1111520283
 20
-416.6591291342
 10
752.2824431132
 20
-421.8627520707
 10
749.2755241684
 20
-426.9694736201
 10
746.1009571065
 20
-431.9613562369
 10
742.76989271
 20
-436.8208657513
 10
739.294031464
 20
-441.5309329588
 10
735.685582458
 20
-446.0750135767
 10
731.9572205007
 20
-450.437146356
 10
728.1220415995
 20
-454.6020091463
 10
724.1935169601
 20
-458.5549727151
 10
720.1854456686
 20
-462.2821521337
 10
716.1119062216
 20
-465.7704555484
 10
711.987207075
 20
-469.0076301664
 10
707.825836385
 20
-471.9823052936
 10
703.6424111178
 20
-474.6840322752
 10
699.4516257073
 20
-477.1033211966
 10
695.2682004401
 20
-479.2316742174
 10
691.10682975
 20
-481.0616154198
 10
686.9821306034
 20
-482.5867170686
 10
682.9085911564
 20
-483.8016221888
 10
678.9005198649
 20
-484.7020633817
 10
674.9719952255
 20
-485.2848778148
 10
671.1368163243
 20
-485.5480183312
 10
668.4499967787
 20
-485.5392889498
  0
CIRCLE
  5
E0
330
1F
100
AcDbEntity
  8
0
  6
Continuous
 62
     7
370
    25
100
AcDbCircle
 10
126.2737383144
 20
99.4602266497
 30
0.0
 40
157.5
  0
CIRCLE
  5
E1
330
1F
100
AcDbEntity
  8
0
  6
Continuous
 62
     7
370
    25
100
AcDbCircle
 10
126.2737383144
 20
99.4602266497
 30
0.0
 40
128.9
  0
CIRCLE
  5
E2
330
1F
100
AcDbEntity
  8
0
  6
Continuous
 62
     7
370
    25
100
AcDbCircle
 10
126.2737383144
 20
99.4602266497
 30
0.0
 40
128.3562503361071
  0
CIRCLE
  5
E3
330
1F
100
AcDbEntity
  8
0
  6
Continuous
 62
     7
370
    25
100
AcDbCircle
 10
126.2737383144
 20
99.4602266497
 30
0.0
 40
82.34374966389288
  0
CIRCLE
  5
E4
330
1F
100
AcDbEntity
  8
0
  6
Continuous
 62
     7
370
    25
100
AcDbCircle
 10
126.2737383144
 20
99.4602266497
 30
0.0
 40
81.80000000000001
  0
INSERT
  5
F0
330
1F
100
AcDbEntity
  8
FORMAT
 62
     7
100
AcDbBlockReference
  2
SW_CENTERMARKSYMBOL_0
 10
126.2737383144
 20
99.4602266497
 30
0.0
  0
ENDSEC
  0
SECTION
  2
OBJECTS
  0
DICTIONARY
  5
C
330
0
100
AcDbDictionary
281
     1
  3
ACAD_GROUP
350
D
  3
ACAD_LAYOUT
350
1A
  3
ACAD_MLINESTYLE
350
17
  3
ACAD_PLOTSETTINGS
350
19
  3
ACAD_PLOTSTYLENAME
350
E
  3
ACAD_SCALELIST
350
47
  3
DWGPROPS
350
F1
  0
DICTIONARY
  5
D
102
{ACAD_REACTORS
330
C
102
}
330
C
100
AcDbDictionary
281
     1
  0
DICTIONARY
  5
1A
102
{ACAD_REACTORS
330
C
102
}
330
C
100
AcDbDictionary
281
     1
  3
Layout1
350
1E
  3
Layout2
350
26
  3
Model
350
22
  0
DICTIONARY
  5
17
102
{ACAD_REACTORS
330
C
102
}
330
C
100
AcDbDictionary
281
     1
  3
Standard
350
18
  0
DICTIONARY
  5
19
102
{ACAD_REACTORS
330
C
102
}
330
C
100
AcDbDictionary
281
     1
  0
ACDBDICTIONARYWDFLT
  5
E
102
{ACAD_REACTORS
330
C
102
}
330
C
100
AcDbDictionary
281
     1
  3
Normal
350
F
100
AcDbDictionaryWithDefault
340
F
  0
DICTIONARY
  5
47
102
{ACAD_REACTORS
330
C
102
}
330
C
100
AcDbDictionary
281
     1
  3
A0
350
48
  3
A1
350
49
  3
A2
350
4A
  3
A3
350
4B
  3
A4
350
4C
  3
A5
350
4D
  3
A6
350
4E
  3
A7
350
4F
  3
A8
350
50
  3
A9
350
51
  3
B0
350
52
  3
B1
350
53
  3
B2
350
54
  3
B3
350
55
  3
B4
350
56
  3
B5
350
57
  3
B6
350
58
  3
B7
350
59
  3
B8
350
5A
  3
B9
350
5B
  3
C0
350
5C
  3
C1
350
5D
  3
C2
350
5E
  3
C3
350
5F
  3
C4
350
60
  3
C5
350
61
  3
C6
350
62
  3
C7
350
63
  3
C8
350
64
  3
C9
350
65
  3
D0
350
66
  3
D1
350
67
  3
D2
350
68
  0
XRECORD
  5
F1
102
{ACAD_REACTORS
330
C
102
}
330
C
100
AcDbXrecord
280
     1
  1
DWGPROPS COOKIE
  2

  3

  4

  6

  7

  8
b.kav
  9

300
=
301
=
302
=
303
=
304
=
305
=
306
=
307
=
308
=
309
=
 40
0.0
 41
2459853.474861655
 42
2459853.474861805
  1

 90
        0
  0
LAYOUT
  5
1E
102
{ACAD_REACTORS
330
1A
102
}
330
1A
100
AcDbPlotSettings
  1

  2
none_device
  4

  6

 40
0.0
 41
0.0
 42
0.0
 43
0.0
 44
0.0
 45
0.0
 46
0.0
 47
0.0
 48
0.0
 49
0.0
140
0.0
141
0.0
142
1.0
143
1.0
 70
   688
 72
     1
 73
     0
 74
     5
  7

 75
    16
147
1.0
148
0.0
149
0.0
100
AcDbLayout
  1
Layout1
 70
     1
 71
     1
 10
0.0
 20
0.0
 11
420.0
 21
297.0
 12
0.0
 22
0.0
 32
0.0
 14
1.0000000000E+20
 24
1.0000000000E+20
 34
1.0000000000E+20
 15
-1.0000000000E+20
 25
-1.0000000000E+20
 35
-1.0000000000E+20
146
0.0
 13
0.0
 23
0.0
 33
0.0
 16
1.0
 26
0.0
 36
0.0
 17
0.0
 27
1.0
 37
0.0
 76
     0
330
1B
  0
LAYOUT
  5
26
102
{ACAD_REACTORS
330
1A
102
}
330
1A
100
AcDbPlotSettings
  1

  2
none_device
  4

  6

 40
0.0
 41
0.0
 42
0.0
 43
0.0
 44
0.0
 45
0.0
 46
0.0
 47
0.0
 48
0.0
 49
0.0
140
0.0
141
0.0
142
1.0
143
1.0
 70
   688
 72
     1
 73
     0
 74
     5
  7

 75
    16
147
1.0
148
0.0
149
0.0
100
AcDbLayout
  1
Layout2
 70
     1
 71
     2
 10
0.0
 20
0.0
 11
0.0
 21
0.0
 12
0.0
 22
0.0
 32
0.0
 14
0.0
 24
0.0
 34
0.0
 15
0.0
 25
0.0
 35
0.0
146
0.0
 13
0.0
 23
0.0
 33
0.0
 16
1.0
 26
0.0
 36
0.0
 17
0.0
 27
1.0
 37
0.0
 76
     0
330
23
  0
LAYOUT
  5
22
102
{ACAD_REACTORS
330
1A
102
}
330
1A
100
AcDbPlotSettings
  1

  2
none_device
  4
Letter_(8.50_x_11.00_Inches)
  6

 40
6.35
 41
6.35
 42
6.35000508
 43
6.35000508
 44
215.9
 45
279.4
 46
0.0
 47
0.0
 48
0.0
 49
0.0
140
0.0
141
0.0
142
1.0
143
1.0
 70
  1712
 72
     1
 73
     0
 74
     0
  7

 75
     0
147
1.0
148
0.0
149
0.0
100
AcDbLayout
  1
Model
 70
     1
 71
     0
 10
0.0
 20
0.0
 11
279.4
 21
215.9
 12
0.0
 22
0.0
 32
0.0
 14
0.0
 24
0.0
 34
0.0
 15
279.4
 25
215.9
 35
0.0
146
0.0
 13
0.0
 23
0.0
 33
0.0
 16
1.0
 26
0.0
 36
0.0
 17
0.0
 27
1.0
 37
0.0
 76
     0
330
1F
331
29
  0
MLINESTYLE
  5
18
102
{ACAD_REACTORS
330
17
102
}
330
17
100
AcDbMlineStyle
  2
Standard
 70
     0
  3

 62
   256
 51
90.0
 52
90.0
 71
     2
 49
0.5
 62
   256
  6
BYLAYER
 49
-0.5
 62
   256
  6
BYLAYER
  0
ACDBPLACEHOLDER
  5
F
102
{ACAD_REACTORS
330
E
102
}
330
E
  0
SCALE
  5
48
102
{ACAD_REACTORS
330
47
102
}
330
47
100
AcDbScale
 70
     0
300
1:1
140
1.0
141
1.0
290
     1
  0
SCALE
  5
49
102
{ACAD_REACTORS
330
47
102
}
330
47
100
AcDbScale
 70
     0
300
1:2
140
1.0
141
2.0
290
     0
  0
SCALE
  5
4A
102
{ACAD_REACTORS
330
47
102
}
330
47
100
AcDbScale
 70
     0
300
1:4
140
1.0
141
4.0
290
     0
  0
SCALE
  5
4B
102
{ACAD_REACTORS
330
47
102
}
330
47
100
AcDbScale
 70
     0
300
1:5
140
1.0
141
5.0
290
     0
  0
SCALE
  5
4C
102
{ACAD_REACTORS
330
47
102
}
330
47
100
AcDbScale
 70
     0
300
1:8
140
1.0
141
8.0
290
     0
  0
SCALE
  5
4D
102
{ACAD_REACTORS
330
47
102
}
330
47
100
AcDbScale
 70
     0
300
1:10
140
1.0
141
10.0
290
     0
  0
SCALE
  5
4E
102
{ACAD_REACTORS
330
47
102
}
330
47
100
AcDbScale
 70
     0
300
1:16
140
1.0
141
16.0
290
     0
  0
SCALE
  5
4F
102
{ACAD_REACTORS
330
47
102
}
330
47
100
AcDbScale
 70
     0
300
1:20
140
1.0
141
20.0
290
     0
  0
SCALE
  5
50
102
{ACAD_REACTORS
330
47
102
}
330
47
100
AcDbScale
 70
     0
300
1:30
140
1.0
141
30.0
290
     0
  0
SCALE
  5
51
102
{ACAD_REACTORS
330
47
102
}
330
47
100
AcDbScale
 70
     0
300
1:40
140
1.0
141
40.0
290
     0
  0
SCALE
  5
52
102
{ACAD_REACTORS
330
47
102
}
330
47
100
AcDbScale
 70
     0
300
1:50
140
1.0
141
50.0
290
     0
  0
SCALE
  5
53
102
{ACAD_REACTORS
330
47
102
}
330
47
100
AcDbScale
 70
     0
300
1:100
140
1.0
141
100.0
290
     0
  0
SCALE
  5
54
102
{ACAD_REACTORS
330
47
102
}
330
47
100
AcDbScale
 70
     0
300
2:1
140
2.0
141
1.0
290
     0
  0
SCALE
  5
55
102
{ACAD_REACTORS
330
47
102
}
330
47
100
AcDbScale
 70
     0
300
4:1
140
4.0
141
1.0
290
     0
  0
SCALE
  5
56
102
{ACAD_REACTORS
330
47
102
}
330
47
100
AcDbScale
 70
     0
300
8:1
140
8.0
141
1.0
290
     0
  0
SCALE
  5
57
102
{ACAD_REACTORS
330
47
102
}
330
47
100
AcDbScale
 70
     0
300
10:1
140
10.0
141
1.0
290
     0
  0
SCALE
  5
58
102
{ACAD_REACTORS
330
47
102
}
330
47
100
AcDbScale
 70
     0
300
100:1
140
100.0
141
1.0
290
     0
  0
SCALE
  5
59
102
{ACAD_REACTORS
330
47
102
}
330
47
100
AcDbScale
 70
     0
300
1/128" = 1'-0"
140
0.0078125
141
12.0
290
     0
  0
SCALE
  5
5A
102
{ACAD_REACTORS
330
47
102
}
330
47
100
AcDbScale
 70
     0
300
1/64" = 1'-0"
140
0.015625
141
12.0
290
     0
  0
SCALE
  5
5B
102
{ACAD_REACTORS
330
47
102
}
330
47
100
AcDbScale
 70
     0
300
1/32" = 1'-0"
140
0.03125
141
12.0
290
     0
  0
SCALE
  5
5C
102
{ACAD_REACTORS
330
47
102
}
330
47
100
AcDbScale
 70
     0
300
1/16" = 1'-0"
140
0.0625
141
12.0
290
     0
  0
SCALE
  5
5D
102
{ACAD_REACTORS
330
47
102
}
330
47
100
AcDbScale
 70
     0
300
3/32" = 1'-0"
140
0.09375
141
12.0
290
     0
  0
SCALE
  5
5E
102
{ACAD_REACTORS
330
47
102
}
330
47
100
AcDbScale
 70
     0
300
1/8" = 1'-0"
140
0.125
141
12.0
290
     0
  0
SCALE
  5
5F
102
{ACAD_REACTORS
330
47
102
}
330
47
100
AcDbScale
 70
     0
300
3/16" = 1'-0"
140
0.1875
141
12.0
290
     0
  0
SCALE
  5
60
102
{ACAD_REACTORS
330
47
102
}
330
47
100
AcDbScale
 70
     0
300
1/4" = 1'-0"
140
0.25
141
12.0
290
     0
  0
SCALE
  5
61
102
{ACAD_REACTORS
330
47
102
}
330
47
100
AcDbScale
 70
     0
300
3/8" = 1'-0"
140
0.375
141
12.0
290
     0
  0
SCALE
  5
62
102
{ACAD_REACTORS
330
47
102
}
330
47
100
AcDbScale
 70
     0
300
1/2" = 1'-0"
140
0.5
141
12.0
290
     0
  0
SCALE
  5
63
102
{ACAD_REACTORS
330
47
102
}
330
47
100
AcDbScale
 70
     0
300
3/4" = 1'-0"
140
0.75
141
12.0
290
     0
  0
SCALE
  5
64
102
{ACAD_REACTORS
330
47
102
}
330
47
100
AcDbScale
 70
     0
300
1" = 1'-0"
140
1.0
141
12.0
290
     0
  0
SCALE
  5
65
102
{ACAD_REACTORS
330
47
102
}
330
47
100
AcDbScale
 70
     0
300
1-1/2" = 1'-0"
140
1.5
141
12.0
290
     0
  0
SCALE
  5
66
102
{ACAD_REACTORS
330
47
102
}
330
47
100
AcDbScale
 70
     0
300
3" = 1'-0"
140
3.0
141
12.0
290
     0
  0
SCALE
  5
67
102
{ACAD_REACTORS
330
47
102
}
330
47
100
AcDbScale
 70
     0
300
6" = 1'-0"
140
6.0
141
12.0
290
     0
  0
SCALE
  5
68
102
{ACAD_REACTORS
330
47
102
}
330
47
100
AcDbScale
 70
     0
300
1'-0" = 1'-0"
140
12.0
141
12.0
290
     0
  0
ENDSEC
  0
EOF
